Angie Rolling Stones Spotify

Angie, Angie, when will those clouds all disappear?
Angie, Angie, where will it lead us from here?
With no loving in our souls and no money in our coats
You can't say we're satisfied
But Angie, Angie, you can't say we never tried
Angie, you're beautiful, but ain't it time we said goodbye?
Angie, I still love you, remember all those nights we cried?
All the dreams we held so close seemed to all go up in smoke
Let me whisper in your ear
Angie, Angie, where will it lead us from here?
Oh, Angie, don't you weep, all your kisses still taste sweet
I hate that sadness in your eyes
But Angie, Angie, ain't it time we said goodbye?
With no loving in our souls and no money in our coats
You can't say we're satisfied
But Angie, I still love you, baby
Everywhere I look I see your eyes
There ain't a woman that comes close to you
Come on baby, dry your eyes
But Angie, Angie, ain't it good to be alive?
Angie, Angie, they can't say we never tried

Beds Are Burning Midnight Oil Spotify

E G A
Out where the river broke, the bloodwood and the desert oak
Holden wrecks and boiling diesels, steam in forty five degrees
The time has come to say fair's fair to pay the rent to pay our share
The time has come a fact's a fact it belongs to them let's give it back
E G A
How can we dance when our earth is turning
How do we sleep while our beds are burning
How can we dance when our earth is turning
How do we sleep while our beds are burning
The time has come to say fairs fair to pay the rent now to pay our share
Four wheels scare the cockatoos, from Kintore East to Yuendemu
The western desert lives and breathes, in forty five degrees
The time has come to say fair's fair to pay the rent to pay our share
The time has come a fact's a fact it belongs to them let's give it back
E G A
How can we dance when our earth is turning
How do we sleep while our beds are burning
How can we dance when our earth is turning
How do we sleep while our beds are burning
The time has come to say fair's fair to pay the rent now to pay our share
The time has come a fact's a fact it belongs to them we're gonna give it back
How can we dance when our earth is turning
How do we sleep while our beds are burning
Em C G Em C D E G A 2x

Brothers in Arms Dire Straits Spotify

Am | F | Am | F | Dm

e--------------------------------------------------|
B----------------------------------------4---------|
G----------------------3h4/s6-4h3---------4--6-----|
D---4/6-6-8h6~-6h8-6---------------6-4-6-----------|
A---4/6--------------------------------------------|
E--------------------------------------------------|

e-----------------------------------------------------------|
B-2/4--------------------------------------------4----------|
G-----6-4-3---6-4-3----------4-3--4-3----------4---6---6/8~-|
D-----------6-------6----4-6----------6---6-6---------------|
A---------------------------------------6-------------------|
E-----------------------------------------------------------|

These mist covered mountains are home now for me
But my home is the lowlands and always will be
Someday you'll return to your valley and your farms
And you'll no longer burn to be brothers in arms
Am | F | Dm
Through these fields of destruction baptisms of fire
I've watched all your suffering as the battles raged higher
And though they did hurt me so bad in the fear and alarm
You did not desert me my brothers in arms
Am | F | Dm
There's so many different worlds so many different suns
And we have just one world but we live in different ones
Am | F | Dm | F | Am | F | Dm | Dm F G | Am
Now the sun's gone to hell and the moon riding high
Let me bid your farewell every man has to die
But its written in the starlight and every line in your palm
We're fools to make war on our brothers in arms

House of the Rising Sun The Animals Spotify

There is a house in New Orleans
They call the Rising Sun
And it's been the ruin of many a poor boy
And God I know I'm one
My mother was a tailor
She sewed my new bluejeans
My father was a gamblin' man
Down in New Orleans
Now the only thing a gambler needs
Is a suitcase and a trunk
And the only time he's satisfied
Is when he's on a drunk
Oh mother tell your children
Not to do what I have done
Spend your lives in sin and misery
In the House of the Rising Sun
Well, I got one foot on the platform
The other foot on the train
I'm goin' back to New Orleans
To wear that ball and chain
Well, there is a house in New Orleans
They call the Rising Sun
And it's been the ruin of many a poor boy
And God I know I'm one

Lonely Boy The Black Keys Spotify

e----------------------------------
B----------------------------------
G----------------------------------
D----------------------------------
A----------------------/7----------
E--0-0-0-0-3-0-0--0-0--------------

E | A | E | A | E | E | E | E
Well I'm so above you and it's plain to see
But I came to love you anyway
So you pulled my heart out and I don't mind bleeding
Any old time you keep me waiting waiting waiting
Oh, oh-oh I got a love that keeps me waiting
Oh, oh-oh I got a love that keeps me waiting
I'm a lonely boy I'm a lonely boy
Oh, oh-oh I got a love that keeps me waiting
E | E | E | E
Well your mama kept you but your daddy left you
And I should've done you just the same
But I came to love you am I born to bleed
Any old time you keep me waiting Waiting waiting
Oh, oh-oh I got a love that keeps me waiting
Oh, oh-oh I got a love that keeps me waiting
I'm a lonely boy I'm a lonely boy
Oh, oh-oh I got a love that keeps me waiting
Oh, oh-oh I got a love that keeps me waiting
Oh, oh-oh I got a love that keeps me waiting
I'm a lonely boy I'm a lonely boy
Oh, oh-oh I got a love that keeps me waiting

Long Tall Sally Little Richard Spotify

Capo 3

I'm gonna tell Aunt Mary 'bout Uncle John
He claims he has the misery but he's havin' a lot of fun oh baby
Yee ee ee eeh baby woo oo oo ooh baby
Havin' me some fun tonight yeah
Well long tall Sally she's built for speed
She got everything that Uncle John need oh baby
Yee ee ee eeh baby woo oo oo ooh baby
Havin' me some fun tonight yeah
Well, I saw Uncle John with bald-head Sally
He saw Aunt Mary comin' and he ducked back in the alley oh baby
Yee ee ee eeh baby woo oo oo ooh baby
Havin' me some fun tonight oww
D G D A G D A D G D A G D D
Well long tall Sally she's built for speed
She got everything that Uncle John need oh baby
Yee ee ee eeh baby woo oo oo ooh baby
Havin' me some fun tonight yeah
Well, I saw Uncle John with bald-head Sally
He saw Aunt Mary comin' and he ducked back in the alley oh baby
Yee ee ee eeh baby woo oo oo ooh baby
Havin' me some fun tonight yeah
We gonna have some fun tonight
We gonna have some fun tonight woo
Have some fun tonight everything's all right
Have some fun have me some fun tonight

Nothing Else Matters Metallica Spotify

e|--------0-------|--------0-------|--------0-------|--------0----7--|
B|------0---0-----|------0---0-----|------0---0-----|------0---0-----|
G|----0-------0---|----0-------0---|----0-------0---|----0-----------|
D|----------------|----------------|----------------|----------------|
A|----------------|----------------|----------------|----------------|
E|-0--------------|-0--------------|-0--------------|-0--------------|
  Em
e|-7------7p0-----|(0)--7--8-7h8s5-|--7---5p3s2--0--|------2p0-------|
B|---0----0---0---|-----0--0-------|--0-------------|-5---5-----5----|
G|-----0--------0-|---0------------|----------------|---5----------5-|
D|----------------|----------------|----------------|----------------|
A|----------------|----------------|----------------|-0--------------|
E|-0--------------|-0--------------|----------------|----------------|
                                                     Am
e|-------0--0=-0=-|-0~------3p0---0=-|-0~-----0~h5p0--------|
B|-----5----5=-5=-|-5~---5-----5--5=-|-7~---7-------7p0-0h5-|
G|---5------5=-5=-|-5~--5-5-----5-5=-|-7~--7-7--------------|
D|----------------|------------------|----------------------|
A|-0--------0=-2=-|-3~-3----------3=-|-5~-5-----------------|
E|----------------|---------------#1#|#1#-------------------|
                    C                 Dadd2/9
e|-----------12--------|--------0-------|--------0-------|--------0-----|
B|--------12-----0-----|------0---0-----|------0---0-----|------0---0---|
G|-----12----------0---|----0-------0---|----0-------0---|----0-------0-|
D|---------------------|----------------|----------------|--------------|
A|---------------------|----------------|----------------|--------------|
E|-0-------------------|-0--------------|-0--------------|-0------------|

So close no matter how far couldn't be much more from the heart
Forever trusting who we are and nothing else matters
Never opened myself this way life is ours, we live it our way
All these words I don't just say and nothing else matters
Trust I seek and I find in you every day for us something new
Open mind for a different view and nothing else matters
Never cared for what they do never cared for what they know but I know
So close no matter how far, couldn't be much more from the heart
Forever trusting who we are and nothing else matters
Never cared for what they do never cared for what they know but I know
Em Am C D Em Em Am C D Em
Never opened myself this way, life is ours, we live it our way
All these words I don't just say and nothing else matters
Trust I seek and I find in you, every day for us something new
Open mind for a different view and nothing else matters
Never cared for what they say never cared for games they play
Never cared for what they do never cared for what they know and I know, yeah
Em D C Em D C Em D C G B7 Em
So close no matter how far couldn't be much more from the heart
Forever trusting who we are no nothing else matters

November rain Guns N' Roses Spotify

When I look into your eyes I can see a love restrained
But darling when I hold you don't you know I feel the same
Cause nothin' last forever
And we both know hearts can change
And it's hard to hold a candle in the cold november rain
We've been through this such a long, long time
Just tryin' to kill the pain oh yeah
But lovers always come and lovers always go
And no one's really sure who's lettin' go today walkin' away
If we could take the time to lay it on the line
I could rest my head just knowin' that you were mine all mine
So if you want to love me then darlin' don't refrain
Or I'll just end up walkin' in the cold november rain
Do you need sometime on your own
Do you need sometime all alone
Everybody needs sometime on their own
Don't you know you need sometime all alone
I know it's hard to keep an open heart
When even friends seem out to harm you
But if you could heal a broken heart
Wouldn't time be out to charm you
Sometimes I need sometime on my own
Sometimes I need sometime all alone
Everybody needs sometime on their own
Don't you know you need sometime all alone
And when your fears subside and shadows still remains oh yeah
I know that you can love me when there's no one left to blame
So never mind the darkness we still can find a way
Cause nothin' lasts forever even cold november rain

Ohne dich Rammstein Spotify

Dm | Am | Gm | F | Am

Dm                Am
   Ich werde in die Tannen gehen,
Gm                     F     Am 
Dahin, wo ich sie zu letzt gesehen
Dm                            Am
    Doch der Abend wirft ein Tuch aufs Land
Gm                       F     Am 
Und auf die Wege hinterm Waldesrand
Dm                            Am
   Und der Wald er steht so schwarz und leer
Gm              F              Am 
Weh mir oh weh,   und die Vögel singen nicht mehr
Dm                              Am
Ohne dich kann ich nicht sein – Ohne dich
Gm                             F        Am 
Mit dir bin ich auch allein - Ohne dich
Dm                                Am
Ohne dich zähle ich die Stunden – Ohne dich
Gm                             F           Am 
Mit dir stehen die Sekunden – Lohnen nicht
Dm                       Am  
   Auf den Ästen in den Gräben,
Gm                           F Am 
   Ist es nun still und ohne Leben
Dm                          Am  
   Und das Atmen fällt mir ach, so schwer
Gm              F              Am 
Weh mir oh weh,   und die Vögel singen nicht mehr
Dm                              Am
Ohne dich kann ich nicht sein – Ohne dich
Gm                             F        Am 
Mit dir bin ich auch allein - Ohne dich
Dm                                Am
Ohne dich zähle ich die Stunden – Ohne dich
Gm                             F           Am 
Mit dir stehen die Sekunden – Lohnen nicht

Dm | Am | Gm | F | Am
Ohne dich
Dm | Am | Gm | F | Am

Dm                          Am    
   Und das Atmen fällt mir ach, so schwer
Gm              F              Am 
Weh mir oh weh,   und die Vögel singen nicht mehr
Dm                              Am
Ohne dich kann ich nicht sein – Ohne dich
Gm                             F        Am 
Mit dir bin ich auch allein - Ohne dich
Dm                                Am
Ohne dich zähle ich die Stunden – Ohne dich
Gm                             F           Am 
Mit dir stehen die Sekunden – Lohnen nicht

Ohne dich (4x)

Otherside Red Hot Chili Peppers Spotify

Am | F | C | G
How long how long will I slide separate my side
I don't don't believe it's bad slittin' my throat it's all I ever
I heard your voice through a photograph I thought it up and brought up the past
Once you know you can never go back I've got to take it on the otherside
Centuries are what it meant to me A cemetery where I marry the sea
Stranger things never change my mind I've got to take it on the otherside
Take it on the otherside Take it on Take it on
How long how long will I slide separate my side
I don't I don't believe it's bad slittin' my throat it's all I ever
Pour my life into a paper cup The ashtray's full and I'm spillin' my guts
She wants to know am I still a slut I've got to take it on the otherside
Scarlet starlet and she's in my bed A candidate for my soul mate bled
Push the trigger and pull the thread I've got to take it on the otherside
Take it on the otherside Take it on Take it on
How long how long will I slide separate my side
I don't I don't believe it's bad slittin' my throat it's all I ever
Em | Em | Em | C | C | C 2X
Turn me on take me for a hard ride
Burn me out leave me on the otherside
I yell and tell it that it's not my friend
I tear it down I tear it down and then it's born again
Am | F | C | G
How long how long will I slide separate my side
I don't don't believe it's bad slittin' my throat it's all I ever
How long I don't don't believe it's bad
Slit my throat it's all I ever

Self esteem Offspring Spotify

   La La La  Lalalala La La Lalalala
e-----------------------------------------
b-----------------------------------------
g------------10-10-10-10------------------
d---7-7--7---8--8--8--8---10-10--5-5-555--
a---7-7--7---8--8--8--8---8--8---5-5-555--
e---5-5--5----------------8--8---3-3-333--


I wrote her off for the tenth time today
And practiced all the things I would say
But she came over I lost my nerve
I took her back and made her dessert
Oh I know I'm being used
That's okay man cause I like the abuse
Oh I know she's playing with me
That's okay cause I've got no self esteem
Oh wayoo yeaah yeaah 4x
We make plans to go out at night
I wait till two then I turn out the light
This rejection's got me so low
If she keeps it up I just might tell her so
Oh wayoo yeaah yeaah 4x
When she's saying, oh, that she wants only me
Then I wonder why she sleeps with my friends
When she's saying, oh, that I'm like a disease
Then I wonder how much more I can spend
Well I guess I should stick up for myself
But I really think it's better this way
The more you suffer The more it shows you really care
Right? Yeah-eh-eh
Now I'll relate this little bit
That happens more than I'd like to admit
Late at night she knocks on my door
She's drunk again and looking to score
Oh I know I should say no but
It's kind of hard when she's ready to go
I may be dumb, but I'm not a dweeb
I'm just a sucker with no self esteem
Oh wayoo yeaah yeaah 4x
When she's saying, oh, that she wants only me
Then I wonder why she sleeps with my friends
When she's saying, oh, that I'm like a disease
Then I wonder how much more I can spend
Well I guess I should stick up for myself
But I really think it's better this way
The more you suffer
The more it shows you really care
Right? Yeah-eh-eh

Shape of You Ed Sheeran Spotify

Capo 2

e-----------------------------|
B----5-----5-----5---4--------|
G--6---6-6---6-6---6---6-4----|
D-----------------------------|
A-----------------------------|
E-----------------------------|


The club isn't the best place to find a lover so the bar is where I go
Me and my friends at the table doing shots, drinking fast and then we talk slow
Come over and start up a conversation with just me and trust me I'll give it a chance now
Take my hand, stop! Put Van the man on the jukebox and then we start to dance and now I'm singing like
Girl, you know I want your love Your love was handmade for somebody like me
Come on now, follow my lead I may be crazy, don't mind me, say
Boy, let's not talk too much Grab on my waist and put that body on me
Come on now, follow my lead come, come on now, follow my lead hmm hmm hmm
I'm in love with the shape of you We push and pull like a magnet do
Although my heart is falling too I'm in love with your body
And last night you were in my room And now my bedsheets smell like you
Every day discovering something brand new Well I'm in love with your body
Oh, Oh I, Oh I, Oh I I'm in love with your body 3x
Every day discovering something brand new I'm in love with the shape of you
One week in we let the story begin we're going out on our first date
But you and me are thrifty so go all you can eat fill up your bag and I fill up a plate
We talk for hours and hours about the sweet and the sour and how your family is doin' okay
And leave and get in a taxi, we kiss in the backseat
Tell the driver make the radio play, and I'm singing like
Girl, you know I want your love Your love was handmade for somebody like me
Come on now, follow my lead I may be crazy, don't mind me, say
Boy, let's not talk too much Grab on my waist and put that body on me
Come on now, follow my lead come, come on now, follow my lead hmm hmm hmm
I'm in love with the shape of you We push and pull like a magnet do
Although my heart is falling too I'm in love with your body
And last night you were in my room And now my bedsheets smell like you
Every day discovering something brand new Well I'm in love with your body
Oh, Oh I, Oh I, Oh I I'm in love with your body 3x
Every day discovering something brand new I'm in love with the shape of you
Come on, be my baby, come on Come on, be my baby, come on 4x
I'm in love with the shape of you We push and pull like a magnet do
Although my heart is falling too I'm in love with your body
And last night you were in my room And now my bedsheets smell like you
Every day discovering something brand new Well I'm in love with your body
Come on, be my baby, come on Come on, be my baby, come on 3x
Every day discovering something brand new I'm in love with the shape of you

Sweet Home Alabama Lynyrd Skynyrd Spotify

     D          Cadd9            G
e|------------------------------|-------------------------------|
B|--------3--------------3------|--------3----------------------|
G|----------2--------------0----|--------0------------------2h0-|
D|--0--0------0--------------0--|--------0--------0-2h0---------|
A|--------------3--3------------|------------0h2---------2------|
E|------------------------------|3--3---------------------------|

D | Cadd9 | G 4x
Big wheels keep on turning
Carry me home to see my kin
Singing songs about the southland
I miss ole bamy once again and I think it's a sin
D | Cadd9 | G 2x
Well I heard Mister Young sing about her
Well I heard ole Neil put her down
Well I hope Neil Young will remember
A southern man don't need him around anyhow
Sweet home Alabama Where the skies are so blue
Sweet home Alabama Lord, I'm coming home to you
D | Cadd9 | G 2x
In Birmingham they love the Governor Boo hoo hoo
Now we all did what we could do
Now Watergate does not bother me
Does your conscience bother you tell the truth
Sweet home Alabama Where the skies are so blue
Sweet home Alabama Lord, I'm coming home to you
D | Cadd9 | G 2x Ah Ah Ah Alabama 4x D | Cadd9 | G 2x
Now Muscle Shoals has got the Swampers
And they've been known to pick a tune or two
Lord they get me off so much
They pick me up when I'm feeling blue now how about you
Sweet home Alabama Where the skies are so blue
Sweet home Alabama Lord, I'm coming home to you
Sweet home Alabama oh sweet homeWhere the skies are blue and it's true
Sweet home Alabama Lord, I'm coming home to you
D | Cadd9 | G

The Kids Aren't Alright Offspring Spotify

Capo 1

When we were young the future was so bright woah-oh
The old neighborhood was so alive woah-oh
And every kid on the whole damn street Woah-oh
Was gonna make it big and not be beat
Now the neighborhood's cracked and torn woah-oh
The kids are grown up but their lives are worn woah-oh
How can one little street swallow so many lives
Chances thrown nothing's free Longing for what used to be
Still it's hard, hard to see Fragile lives shattered dreams
Jamie had a chance, well she really did woah-oh
Instead she dropped out and had a couple of kids woah-oh
Mark still lives at home cause he's got no job
Just plays guitar and smokes a lot of pot
Jay committed suicide woah-oh
Brandon OD'd and died woah-oh
What the hell is going on cruelest dream reality
Chances thrown nothing's free Longing for what used to be
Still it's hard, hard to see Fragile lives shattered dreams
Chances thrown nothing's free Longing for what used to be
Still it's hard, hard to see Fragile lives shattered dreams

Original version

e|---------------------------------|-----------------------------------|
B|---------------------------------|-----------------------------------|
G|-----6---6-----5---5-5-5-5/6-----|-----6---6-----5---5-5-5-5/6-------|
D|-8-8-8-8-8-8-8-8-8-8-8-8-8---8-8-|-4-4-4-4-4-4-4-4-4-4-4-4-4---4-4---|
A|---------------------------------|-----------------------------------|
E|---------------------------------|-----------------------------------|

e|---------------------------------|-----------------------------------|
B|---------------------------------|-----------------------------------|
G|-----6---6-----5---5-5-5-5/6-----|-6/8-----6-----5---5-5-5-5/6-------|
D|-6-6-6-6-6-6-6-6-6-6-6-6-6---6-6-|-6---6-6-6-6-6-6-6-6-6-6-----6-6---| x2
A|---------------------------------|-----------------------------------|
E|---------------------------------|-----------------------------------|

e|-----------------------------------------------------------------|
B|-----------------------------------------------------------------|
G|-----------------------------------------------------------------|
D|-----------------------------------------------------------------|
A|-1--1--3--4--------3-4------3-4-6-4--3--4------------------------|
E|--------------2--2-----4--6--------------------------------------| x2

When we were young the future was so bright woah-oh
The old neighborhood was so alive woah-oh
And every kid on the whole damn street Woah-oh
Was gonna make it big and not be beat
Now the neighborhood's cracked and torn woah-oh
The kids are grown up but their lives are worn woah-oh
How can one little street swallow so many lives
Chances thrown nothing's free
Longing for what used to be
Still it's hard Hard to see
Fragile lives, shattered dreams

e|-----------------------------------------------------------------|
B|-----------------------------------------------------------------|
G|-----------------------------------------------------------------|
D|-----------------------------------------------------------------|
A|-1--1--3--4--------3-4------3-4-6-4--3--4------------------------|
E|--------------2--2-----4--6--------------------------------------| x2

Jamie had a chance, well she really did woah-oh
Instead she dropped out and had a couple of kids woah-oh
Mark still lives at home cause he's got no job Just plays guitar and smokes a lot of pot
Jay committed suicide woah-oh
Brandon OD'd and died woah-oh
What the hell is going on cruelest dream reality
Chances thrown Nothing's free
Longing for what used to be
Still it's hard Hard to see
Fragile lives, shattered dreams

e|---------------------------------------------------------------|
B|-----------------------------------------/7b--9b----12b----14b-|
G|---------------------------------------------------------------|
D|---------------------------------------------------------------|
A|-8\-----1-----1/3--4----4/6---6-6/8----------------------------|
E|---------------------------------------------------------------|

e|-------------16-------------------------13---13--13----13---|
B|------16-----------16b1816r--14--16--16b--------------------|
G|------------------------------------------------------------|
D|------------------------------------------------------------|
A|------------------------------------------------------------|
E|------------------------------------------------------------|

e|--13--13----13--13----13---13---13--------------------------------|
B|-------------------------------------16b---16r--14-------14-16-14-|
G|------------------------------------------------------15----------|
D|------------------------------------------------------------------|
A|------------------------------------------------------------------|
E|------------------------------------------------------------------|

e|------------------------------------9---9--------------------|
B|-----14\9--------------------9---9--------------9------------|
G|-15--------11b---11---11---------------------------10---11/13|
D|-------------------------------------------------------------|
A|-------------------------------------------------------------|
E|-------------------------------------------------------------|

e|---------------------------------------------------------------|
B|---------------14---14---16b--16--16--16--14---16b~~---14\-----|
G|-13--13---13/--------------------------------------------------|
D|---------------------------------------------------------------|
A|---------------------------------------------------------------|
E|---------------------------------------------------------------|

Chances thrown Nothing's free
Longing for what used to be
Still it's hard Hard to see
Fragile lives, shattered dreams

e|-------------------------------------------|
B|--11--9--11--9--11--9--11--9--11--9--11--9-|
G|-------------------------------------------|
D|-------------------------------------------|
A|-------------------------------------------|
E|-------------------------------------------|

Turn the page Jon English Spotify

On a long and lonesome highway east of Omaha
You can listen to the engine moaning out it's one note song
You can think about the woman or the girl you knew the night before
But your thoughts will soon be wandering the way they always do
When you're riding sixteen hours and there's nothing there to do
And you don't feel much like riding you just wish the trip was through
Here I am on the road again Here I am on the stage
Here I go playing star again Here I go turn the page
Well you walk into a restaurant all strung out from the road
And you can feel the eyes upon you as you're shaking off the cold
You pretend it doesn't bother you, but you just want to explode
Sometimes you can't hear them talk, but other times you can
And it's the same old clichés, Is it woman? is it man?
And you always seem outnumbered, you don't dare make a stand
Here I am I'm on the road again Here I am I'm up on the stage
Here I go I'm playing star again Here I go turn the page
Out there in the spotlight you're a million miles away
And every ounce of energy you try to give away
As the sweat pours out your body like the music that you play
Later in the evening as you lie awake in bed
With the echoes of the amplifiers ringing in your head
Smoke the day's last cigarette, remembering what she said
Here I am I'm on the road again Here I am I'm on the stage
Here I go I'm playing star again Here I go turn the page
Here I am I'm on the road again Here I am I'm on the stage
Here I go I'm playing star again Here I go just turn the page
Here I am I'm on the road again Here I am I'm up on the stage
Here I go I'm playing star again Here I go Here I go turn the page

Wake Me Up When September Ends Green Day Spotify

e|----------------|----------------|----------------|----------------|
B|-----3------3---|-----3------3---|-----3------3---|-----3------3---|
G|---0------0-----|---0------0-----|---0------0-----|---0------0-----|
D|-5------5-------|-5------5-------|-5------5-------|-5------5-------|
A|----------------|----------------|----------------|----------------|
E|----------------|----------------|----------------|----------------|

Summer has come and passed The innocent can never last
Wake me up when September ends
Like my father's come to passSeven years has gone so fast
Wake me up when September ends
Here comes the rain again Falling from the stars
Drenched in my pain again Becoming who we are
As my memory rests But never forgets what I lost
Wake me up when September ends
Summer has come and passed The innocent can never last
Wake me up when September ends
Ring out the bells again Like we did when spring began
Wake me up when September ends
Here comes the rain again Falling from the stars
Drenched in my pain again Becoming who we are
As my memory rests But never forgets what I lost
Wake me up when September ends
Em | Bm | C | G | D | Em | Bm | C | D
Summer has come and passed The innocent can never last
Wake me up when September ends
Like my father's come to pass Twenty years has gone so fast
Wake me up when September ends 3X

Wind of Change Scorpions Spotify

F | Dm | F | Dm | Am | Dm | Am | G
I follow the Moskva down to Gorky Park
listening to the wind of change
An August summer night soldiers passing by
listening to the wind of change
F | Dm | F | Dm | Am | Dm | Am | G
The world is closing in did you ever think
that we could be so close, like brothers
The future's in the air I can feel it everywhere
blowing with the wind of change
Take me, to the magic of the moment on a glory night
where the children of tomorrow dream away,
(dream away) in the wind of change
Walking down the street distant memories
are buried in the past forever
I follow the Moskva down to Gorky Park
listening to the wind of change
Take me, to the magic of the moment on a glory night
where the children of tomorrow share their dream
(share their dream) for you and me
Take me, to the magic of the moment on a glory night
where the children of tomorrow dream away,
(dream away) in the wind of change
The wind of change blows straight into the face of time
Like a storm wind that will ring the freedom bell for peace of mind
Let your balalaika sing what my guitar wants to say
F | G | E | Am | F | G | Am | F | G | E7 | Am | Dm | E | E7
Take me, to the magic of the moment on a glory night
where the children of tomorrow share their dream
(share their dream) for you and me
Take me, to the magic of the moment on a glory night
where the children of tomorrow dream away,
(dream away) in the wind of change
F | Dm | F | Dm | Am | Dm

Zombie The Cranberries Spotify

Em C G D 4x
Another head hangs lowly, child is slowly taken
And the violence caused such silence, who are we mistaken
But you see it's not me, it's not my family
In your head, in your head, they are fighting
With their tanks and their bombs and their bombs and their guns
in your head, in your head, they are crying
In your head, in your head, zombie, zombie, zombie
What's in your head, in your head, zombie, zombie, zombie
Em C G D 2x
Another mother's breaking heart is taking over
When the violence causes silence, we must be mistaken
It's the same old theme since nineteensixteen
In your head, in your head, they're still fighting
With their tanks and their bombs and their bombs and their guns
In your head, in your head, they're dying
In your head, in your head, zombie, zombie, zombie
What's in your head, in your head, zombie, zombie, zombie
Em C G D